ISO-10303-21;
HEADER;
FILE_DESCRIPTION(('Creo Elements/Direct Modeling STEP Export'),'2;1');
FILE_NAME(
'C:/Users/TECCAD~1/AppData/Local/Temp/0lndrp34e9mqdc44572/0lndrp34e9mqdc
64572','2017-12-19T13:41:43',(''),(''),
'PTC Creo Elements/Direct Modeling STEP processor for AP214 (Solid Model
)',
'PTC Creo Elements/Direct Modeling 19.0E  27-Jun-2016 (C) Parametric Tec
hnology GmbH','');
FILE_SCHEMA(('AUTOMOTIVE_DESIGN { 1 0 10303 214 1 1 1 1 }'));
ENDSEC;
DATA;
#10=CARTESIAN_POINT('',(0.,0.,5.));
#20=DIRECTION('',(0.,0.,-1.));
#30=DIRECTION('',(-1.,0.,0.));
#40=AXIS2_PLACEMENT_3D('',#10,#20,#30);
#50=CYLINDRICAL_SURFACE('',#40,13.);
#60=CARTESIAN_POINT('',(-1.66987298107782,-12.8923048454133,5.));
#70=DIRECTION('',(0.,0.,-1.));
#80=VECTOR('',#70,1000.);
#90=LINE('',#60,#80);
#100=CARTESIAN_POINT('',(-1.66987298107782,-12.8923048454133,5.));
#110=VERTEX_POINT('',#100);
#120=CARTESIAN_POINT('',(-1.66987298107782,-12.8923048454133,0.));
#130=VERTEX_POINT('',#120);
#140=EDGE_CURVE('',#110,#130,#90,.T.);
#150=ORIENTED_EDGE('',*,*,#140,.T.);
#160=CARTESIAN_POINT('',(0.,0.,5.));
#170=DIRECTION('',(0.,0.,1.));
#180=DIRECTION('',(1.,0.,0.));
#190=AXIS2_PLACEMENT_3D('',#160,#170,#180);
#200=CIRCLE('',#190,13.);
#210=CARTESIAN_POINT('',(1.66987298107782,-12.8923048454133,5.));
#220=VERTEX_POINT('',#210);
#230=EDGE_CURVE('',#110,#220,#200,.T.);
#240=ORIENTED_EDGE('',*,*,#230,.F.);
#250=CARTESIAN_POINT('',(1.66987298107782,-12.8923048454133,5.));
#260=DIRECTION('',(0.,0.,-1.));
#270=VECTOR('',#260,1000.);
#280=LINE('',#250,#270);
#290=CARTESIAN_POINT('',(1.66987298107782,-12.8923048454133,0.));
#300=VERTEX_POINT('',#290);
#310=EDGE_CURVE('',#220,#300,#280,.T.);
#320=ORIENTED_EDGE('',*,*,#310,.F.);
#330=CARTESIAN_POINT('',(0.,0.,0.));
#340=DIRECTION('',(0.,0.,1.));
#350=DIRECTION('',(1.,0.,0.));
#360=AXIS2_PLACEMENT_3D('',#330,#340,#350);
#370=CIRCLE('',#360,13.);
#380=EDGE_CURVE('',#130,#300,#370,.T.);
#390=ORIENTED_EDGE('',*,*,#380,.T.);
#400=EDGE_LOOP('',(#390,#320,#240,#150));
#410=FACE_OUTER_BOUND('',#400,.T.);
#420=ADVANCED_FACE('',(#410),#50,.T.);
#430=CARTESIAN_POINT('',(-10.3301270189222,-7.89230484541328,5.));
#440=DIRECTION('',(0.5,0.866025403784439,0.));
#450=DIRECTION('',(-0.866025403784439,0.5,0.));
#460=AXIS2_PLACEMENT_3D('',#430,#440,#450);
#470=PLANE('',#460);
#480=CARTESIAN_POINT('',(-10.3301270189222,-7.89230484541328,5.));
#490=DIRECTION('',(0.,0.,-1.));
#500=VECTOR('',#490,1000.);
#510=LINE('',#480,#500);
#520=CARTESIAN_POINT('',(-10.3301270189222,-7.89230484541328,5.));
#530=VERTEX_POINT('',#520);
#540=CARTESIAN_POINT('',(-10.3301270189222,-7.89230484541328,0.));
#550=VERTEX_POINT('',#540);
#560=EDGE_CURVE('',#530,#550,#510,.T.);
#570=ORIENTED_EDGE('',*,*,#560,.T.);
#580=CARTESIAN_POINT('',(-10.3301270189222,-7.89230484541328,5.));
#590=DIRECTION('',(0.866025403784439,-0.5,0.));
#600=VECTOR('',#590,1000.);
#610=LINE('',#580,#600);
#620=EDGE_CURVE('',#530,#110,#610,.T.);
#630=ORIENTED_EDGE('',*,*,#620,.F.);
#640=ORIENTED_EDGE('',*,*,#140,.F.);
#650=CARTESIAN_POINT('',(-10.3301270189222,-7.89230484541328,0.));
#660=DIRECTION('',(0.866025403784439,-0.5,0.));
#670=VECTOR('',#660,1000.);
#680=LINE('',#650,#670);
#690=EDGE_CURVE('',#550,#130,#680,.T.);
#700=ORIENTED_EDGE('',*,*,#690,.T.);
#710=EDGE_LOOP('',(#700,#640,#630,#570));
#720=FACE_OUTER_BOUND('',#710,.T.);
#730=ADVANCED_FACE('',(#720),#470,.F.);
#740=CARTESIAN_POINT('',(0.,0.,0.));
#750=DIRECTION('',(0.,0.,1.));
#760=DIRECTION('',(1.,0.,0.));
#770=AXIS2_PLACEMENT_3D('',#740,#750,#760);
#780=PLANE('',#770);
#790=CARTESIAN_POINT('',(0.,0.,0.));
#800=DIRECTION('',(0.,0.,1.));
#810=DIRECTION('',(1.,0.,0.));
#820=AXIS2_PLACEMENT_3D('',#790,#800,#810);
#830=CIRCLE('',#820,10.3);
#840=CARTESIAN_POINT('',(-10.3,0.,0.));
#850=VERTEX_POINT('',#840);
#860=CARTESIAN_POINT('',(10.3,1.26138620312177E-15,2.31712886421257E-31)
);
#870=VERTEX_POINT('',#860);
#880=EDGE_CURVE('',#850,#870,#830,.T.);
#890=ORIENTED_EDGE('',*,*,#880,.T.);
#900=EDGE_CURVE('',#870,#850,#830,.T.);
#910=ORIENTED_EDGE('',*,*,#900,.T.);
#920=EDGE_LOOP('',(#910,#890));
#930=FACE_BOUND('',#920,.T.);
#940=CARTESIAN_POINT('',(12.,-4.99999999999999,0.));
#950=DIRECTION('',(0.,1.,0.));
#960=VECTOR('',#950,1000.);
#970=LINE('',#940,#960);
#980=CARTESIAN_POINT('',(12.,-4.99999999999999,0.));
#990=VERTEX_POINT('',#980);
#1000=CARTESIAN_POINT('',(12.,4.99999999999999,0.));
#1010=VERTEX_POINT('',#1000);
#1020=EDGE_CURVE('',#990,#1010,#970,.T.);
#1030=ORIENTED_EDGE('',*,*,#1020,.F.);
#1040=CARTESIAN_POINT('',(0.,0.,0.));
#1050=DIRECTION('',(0.,0.,1.));
#1060=DIRECTION('',(1.,0.,0.));
#1070=AXIS2_PLACEMENT_3D('',#1040,#1050,#1060);
#1080=CIRCLE('',#1070,13.);
#1090=CARTESIAN_POINT('',(10.3301270189222,7.89230484541327,0.));
#1100=VERTEX_POINT('',#1090);
#1110=EDGE_CURVE('',#1010,#1100,#1080,.T.);
#1120=ORIENTED_EDGE('',*,*,#1110,.F.);
#1130=CARTESIAN_POINT('',(10.3301270189222,7.89230484541327,0.));
#1140=DIRECTION('',(-0.866025403784438,0.5,0.));
#1150=VECTOR('',#1140,1000.);
#1160=LINE('',#1130,#1150);
#1170=CARTESIAN_POINT('',(1.66987298107781,12.8923048454133,0.));
#1180=VERTEX_POINT('',#1170);
#1190=EDGE_CURVE('',#1100,#1180,#1160,.T.);
#1200=ORIENTED_EDGE('',*,*,#1190,.F.);
#1210=CARTESIAN_POINT('',(0.,0.,0.));
#1220=DIRECTION('',(0.,0.,1.));
#1230=DIRECTION('',(1.,0.,0.));
#1240=AXIS2_PLACEMENT_3D('',#1210,#1220,#1230);
#1250=CIRCLE('',#1240,13.);
#1260=CARTESIAN_POINT('',(-1.66987298107781,12.8923048454133,0.));
#1270=VERTEX_POINT('',#1260);
#1280=EDGE_CURVE('',#1180,#1270,#1250,.T.);
#1290=ORIENTED_EDGE('',*,*,#1280,.F.);
#1300=CARTESIAN_POINT('',(-1.66987298107781,12.8923048454133,0.));
#1310=DIRECTION('',(-0.866025403784439,-0.5,0.));
#1320=VECTOR('',#1310,1000.);
#1330=LINE('',#1300,#1320);
#1340=CARTESIAN_POINT('',(-10.3301270189222,7.89230484541327,0.));
#1350=VERTEX_POINT('',#1340);
#1360=EDGE_CURVE('',#1270,#1350,#1330,.T.);
#1370=ORIENTED_EDGE('',*,*,#1360,.F.);
#1380=CARTESIAN_POINT('',(0.,0.,0.));
#1390=DIRECTION('',(0.,0.,1.));
#1400=DIRECTION('',(1.,0.,0.));
#1410=AXIS2_PLACEMENT_3D('',#1380,#1390,#1400);
#1420=CIRCLE('',#1410,13.);
#1430=CARTESIAN_POINT('',(-12.,5.,0.));
#1440=VERTEX_POINT('',#1430);
#1450=EDGE_CURVE('',#1350,#1440,#1420,.T.);
#1460=ORIENTED_EDGE('',*,*,#1450,.F.);
#1470=CARTESIAN_POINT('',(-12.,5.,0.));
#1480=DIRECTION('',(0.,-1.,0.));
#1490=VECTOR('',#1480,1000.);
#1500=LINE('',#1470,#1490);
#1510=CARTESIAN_POINT('',(-12.,-5.,0.));
#1520=VERTEX_POINT('',#1510);
#1530=EDGE_CURVE('',#1440,#1520,#1500,.T.);
#1540=ORIENTED_EDGE('',*,*,#1530,.F.);
#1550=CARTESIAN_POINT('',(0.,0.,0.));
#1560=DIRECTION('',(0.,0.,1.));
#1570=DIRECTION('',(1.,0.,0.));
#1580=AXIS2_PLACEMENT_3D('',#1550,#1560,#1570);
#1590=CIRCLE('',#1580,13.);
#1600=EDGE_CURVE('',#1520,#550,#1590,.T.);
#1610=ORIENTED_EDGE('',*,*,#1600,.F.);
#1620=ORIENTED_EDGE('',*,*,#690,.F.);
#1630=ORIENTED_EDGE('',*,*,#380,.F.);
#1640=CARTESIAN_POINT('',(1.66987298107782,-12.8923048454133,0.));
#1650=DIRECTION('',(0.866025403784438,0.5,0.));
#1660=VECTOR('',#1650,1000.);
#1670=LINE('',#1640,#1660);
#1680=CARTESIAN_POINT('',(10.3301270189222,-7.89230484541327,0.));
#1690=VERTEX_POINT('',#1680);
#1700=EDGE_CURVE('',#300,#1690,#1670,.T.);
#1710=ORIENTED_EDGE('',*,*,#1700,.F.);
#1720=CARTESIAN_POINT('',(0.,0.,0.));
#1730=DIRECTION('',(0.,0.,1.));
#1740=DIRECTION('',(1.,0.,0.));
#1750=AXIS2_PLACEMENT_3D('',#1720,#1730,#1740);
#1760=CIRCLE('',#1750,13.);
#1770=EDGE_CURVE('',#1690,#990,#1760,.T.);
#1780=ORIENTED_EDGE('',*,*,#1770,.F.);
#1790=EDGE_LOOP('',(#1780,#1710,#1630,#1620,#1610,#1540,#1460,#1370,
#1290,#1200,#1120,#1030));
#1800=FACE_OUTER_BOUND('',#1790,.T.);
#1810=ADVANCED_FACE('',(#930,#1800),#780,.F.);
#1820=CARTESIAN_POINT('',(1.66987298107782,-12.8923048454133,5.));
#1830=DIRECTION('',(-0.5,0.866025403784439,0.));
#1840=DIRECTION('',(-0.866025403784439,-0.5,0.));
#1850=AXIS2_PLACEMENT_3D('',#1820,#1830,#1840);
#1860=PLANE('',#1850);
#1870=ORIENTED_EDGE('',*,*,#310,.T.);
#1880=CARTESIAN_POINT('',(1.66987298107782,-12.8923048454133,5.));
#1890=DIRECTION('',(0.866025403784438,0.5,0.));
#1900=VECTOR('',#1890,1000.);
#1910=LINE('',#1880,#1900);
#1920=CARTESIAN_POINT('',(10.3301270189222,-7.89230484541327,5.));
#1930=VERTEX_POINT('',#1920);
#1940=EDGE_CURVE('',#220,#1930,#1910,.T.);
#1950=ORIENTED_EDGE('',*,*,#1940,.F.);
#1960=CARTESIAN_POINT('',(10.3301270189222,-7.89230484541327,5.));
#1970=DIRECTION('',(0.,0.,-1.));
#1980=VECTOR('',#1970,1000.);
#1990=LINE('',#1960,#1980);
#2000=EDGE_CURVE('',#1930,#1690,#1990,.T.);
#2010=ORIENTED_EDGE('',*,*,#2000,.F.);
#2020=ORIENTED_EDGE('',*,*,#1700,.T.);
#2030=EDGE_LOOP('',(#2020,#2010,#1950,#1870));
#2040=FACE_OUTER_BOUND('',#2030,.T.);
#2050=ADVANCED_FACE('',(#2040),#1860,.F.);
#2060=CARTESIAN_POINT('',(0.,0.,5.));
#2070=DIRECTION('',(0.,0.,1.));
#2080=DIRECTION('',(1.,0.,0.));
#2090=AXIS2_PLACEMENT_3D('',#2060,#2070,#2080);
#2100=PLANE('',#2090);
#2110=CARTESIAN_POINT('',(0.,0.,5.));
#2120=DIRECTION('',(0.,0.,-1.));
#2130=DIRECTION('',(1.,0.,0.));
#2140=AXIS2_PLACEMENT_3D('',#2110,#2120,#2130);
#2150=CIRCLE('',#2140,10.3);
#2160=CARTESIAN_POINT('',(-10.3,1.26138620312177E-15,5.));
#2170=VERTEX_POINT('',#2160);
#2180=CARTESIAN_POINT('',(10.3,0.,5.));
#2190=VERTEX_POINT('',#2180);
#2200=EDGE_CURVE('',#2170,#2190,#2150,.T.);
#2210=ORIENTED_EDGE('',*,*,#2200,.T.);
#2220=EDGE_CURVE('',#2190,#2170,#2150,.T.);
#2230=ORIENTED_EDGE('',*,*,#2220,.T.);
#2240=EDGE_LOOP('',(#2230,#2210));
#2250=FACE_BOUND('',#2240,.T.);
#2260=ORIENTED_EDGE('',*,*,#1940,.T.);
#2270=ORIENTED_EDGE('',*,*,#230,.T.);
#2280=ORIENTED_EDGE('',*,*,#620,.T.);
#2290=CARTESIAN_POINT('',(0.,0.,5.));
#2300=DIRECTION('',(0.,0.,1.));
#2310=DIRECTION('',(1.,0.,0.));
#2320=AXIS2_PLACEMENT_3D('',#2290,#2300,#2310);
#2330=CIRCLE('',#2320,13.);
#2340=CARTESIAN_POINT('',(-12.,-5.,5.));
#2350=VERTEX_POINT('',#2340);
#2360=EDGE_CURVE('',#2350,#530,#2330,.T.);
#2370=ORIENTED_EDGE('',*,*,#2360,.T.);
#2380=CARTESIAN_POINT('',(-12.,5.,5.));
#2390=DIRECTION('',(0.,-1.,0.));
#2400=VECTOR('',#2390,1000.);
#2410=LINE('',#2380,#2400);
#2420=CARTESIAN_POINT('',(-12.,5.,5.));
#2430=VERTEX_POINT('',#2420);
#2440=EDGE_CURVE('',#2430,#2350,#2410,.T.);
#2450=ORIENTED_EDGE('',*,*,#2440,.T.);
#2460=CARTESIAN_POINT('',(0.,0.,5.));
#2470=DIRECTION('',(0.,0.,1.));
#2480=DIRECTION('',(1.,0.,0.));
#2490=AXIS2_PLACEMENT_3D('',#2460,#2470,#2480);
#2500=CIRCLE('',#2490,13.);
#2510=CARTESIAN_POINT('',(-10.3301270189222,7.89230484541327,5.));
#2520=VERTEX_POINT('',#2510);
#2530=EDGE_CURVE('',#2520,#2430,#2500,.T.);
#2540=ORIENTED_EDGE('',*,*,#2530,.T.);
#2550=CARTESIAN_POINT('',(-1.66987298107781,12.8923048454133,5.));
#2560=DIRECTION('',(-0.866025403784439,-0.5,0.));
#2570=VECTOR('',#2560,1000.);
#2580=LINE('',#2550,#2570);
#2590=CARTESIAN_POINT('',(-1.66987298107781,12.8923048454133,5.));
#2600=VERTEX_POINT('',#2590);
#2610=EDGE_CURVE('',#2600,#2520,#2580,.T.);
#2620=ORIENTED_EDGE('',*,*,#2610,.T.);
#2630=CARTESIAN_POINT('',(0.,0.,5.));
#2640=DIRECTION('',(0.,0.,1.));
#2650=DIRECTION('',(1.,0.,0.));
#2660=AXIS2_PLACEMENT_3D('',#2630,#2640,#2650);
#2670=CIRCLE('',#2660,13.);
#2680=CARTESIAN_POINT('',(1.66987298107781,12.8923048454133,5.));
#2690=VERTEX_POINT('',#2680);
#2700=EDGE_CURVE('',#2690,#2600,#2670,.T.);
#2710=ORIENTED_EDGE('',*,*,#2700,.T.);
#2720=CARTESIAN_POINT('',(10.3301270189222,7.89230484541327,5.));
#2730=DIRECTION('',(-0.866025403784438,0.5,0.));
#2740=VECTOR('',#2730,1000.);
#2750=LINE('',#2720,#2740);
#2760=CARTESIAN_POINT('',(10.3301270189222,7.89230484541327,5.));
#2770=VERTEX_POINT('',#2760);
#2780=EDGE_CURVE('',#2770,#2690,#2750,.T.);
#2790=ORIENTED_EDGE('',*,*,#2780,.T.);
#2800=CARTESIAN_POINT('',(0.,0.,5.));
#2810=DIRECTION('',(0.,0.,1.));
#2820=DIRECTION('',(1.,0.,0.));
#2830=AXIS2_PLACEMENT_3D('',#2800,#2810,#2820);
#2840=CIRCLE('',#2830,13.);
#2850=CARTESIAN_POINT('',(12.,4.99999999999999,5.));
#2860=VERTEX_POINT('',#2850);
#2870=EDGE_CURVE('',#2860,#2770,#2840,.T.);
#2880=ORIENTED_EDGE('',*,*,#2870,.T.);
#2890=CARTESIAN_POINT('',(12.,-4.99999999999999,5.));
#2900=DIRECTION('',(0.,1.,0.));
#2910=VECTOR('',#2900,1000.);
#2920=LINE('',#2890,#2910);
#2930=CARTESIAN_POINT('',(12.,-4.99999999999999,5.));
#2940=VERTEX_POINT('',#2930);
#2950=EDGE_CURVE('',#2940,#2860,#2920,.T.);
#2960=ORIENTED_EDGE('',*,*,#2950,.T.);
#2970=CARTESIAN_POINT('',(0.,0.,5.));
#2980=DIRECTION('',(0.,0.,1.));
#2990=DIRECTION('',(1.,0.,0.));
#3000=AXIS2_PLACEMENT_3D('',#2970,#2980,#2990);
#3010=CIRCLE('',#3000,13.);
#3020=EDGE_CURVE('',#1930,#2940,#3010,.T.);
#3030=ORIENTED_EDGE('',*,*,#3020,.T.);
#3040=EDGE_LOOP('',(#3030,#2960,#2880,#2790,#2710,#2620,#2540,#2450,
#2370,#2280,#2270,#2260));
#3050=FACE_OUTER_BOUND('',#3040,.T.);
#3060=ADVANCED_FACE('',(#2250,#3050),#2100,.T.);
#3070=CARTESIAN_POINT('',(0.,0.,5.));
#3080=DIRECTION('',(0.,0.,-1.));
#3090=DIRECTION('',(-1.,0.,0.));
#3100=AXIS2_PLACEMENT_3D('',#3070,#3080,#3090);
#3110=CYLINDRICAL_SURFACE('',#3100,13.);
#3120=CARTESIAN_POINT('',(-12.,-5.,5.));
#3130=DIRECTION('',(0.,0.,-1.));
#3140=VECTOR('',#3130,1000.);
#3150=LINE('',#3120,#3140);
#3160=EDGE_CURVE('',#2350,#1520,#3150,.T.);
#3170=ORIENTED_EDGE('',*,*,#3160,.T.);
#3180=ORIENTED_EDGE('',*,*,#2360,.F.);
#3190=ORIENTED_EDGE('',*,*,#560,.F.);
#3200=ORIENTED_EDGE('',*,*,#1600,.T.);
#3210=EDGE_LOOP('',(#3200,#3190,#3180,#3170));
#3220=FACE_OUTER_BOUND('',#3210,.T.);
#3230=ADVANCED_FACE('',(#3220),#3110,.T.);
#3240=CARTESIAN_POINT('',(0.,0.,5.));
#3250=DIRECTION('',(0.,0.,-1.));
#3260=DIRECTION('',(-1.,0.,0.));
#3270=AXIS2_PLACEMENT_3D('',#3240,#3250,#3260);
#3280=CYLINDRICAL_SURFACE('',#3270,13.);
#3290=CARTESIAN_POINT('',(12.,4.99999999999999,5.));
#3300=DIRECTION('',(0.,0.,-1.));
#3310=VECTOR('',#3300,1000.);
#3320=LINE('',#3290,#3310);
#3330=EDGE_CURVE('',#2860,#1010,#3320,.T.);
#3340=ORIENTED_EDGE('',*,*,#3330,.T.);
#3350=ORIENTED_EDGE('',*,*,#2870,.F.);
#3360=CARTESIAN_POINT('',(10.3301270189222,7.89230484541327,5.));
#3370=DIRECTION('',(0.,0.,-1.));
#3380=VECTOR('',#3370,1000.);
#3390=LINE('',#3360,#3380);
#3400=EDGE_CURVE('',#2770,#1100,#3390,.T.);
#3410=ORIENTED_EDGE('',*,*,#3400,.F.);
#3420=ORIENTED_EDGE('',*,*,#1110,.T.);
#3430=EDGE_LOOP('',(#3420,#3410,#3350,#3340));
#3440=FACE_OUTER_BOUND('',#3430,.T.);
#3450=ADVANCED_FACE('',(#3440),#3280,.T.);
#3460=CARTESIAN_POINT('',(0.,0.,5.));
#3470=DIRECTION('',(0.,0.,-1.));
#3480=DIRECTION('',(-1.,0.,0.));
#3490=AXIS2_PLACEMENT_3D('',#3460,#3470,#3480);
#3500=CYLINDRICAL_SURFACE('',#3490,13.);
#3510=CARTESIAN_POINT('',(1.66987298107781,12.8923048454133,5.));
#3520=DIRECTION('',(0.,0.,-1.));
#3530=VECTOR('',#3520,1000.);
#3540=LINE('',#3510,#3530);
#3550=EDGE_CURVE('',#2690,#1180,#3540,.T.);
#3560=ORIENTED_EDGE('',*,*,#3550,.T.);
#3570=ORIENTED_EDGE('',*,*,#2700,.F.);
#3580=CARTESIAN_POINT('',(-1.66987298107781,12.8923048454133,5.));
#3590=DIRECTION('',(0.,0.,-1.));
#3600=VECTOR('',#3590,1000.);
#3610=LINE('',#3580,#3600);
#3620=EDGE_CURVE('',#2600,#1270,#3610,.T.);
#3630=ORIENTED_EDGE('',*,*,#3620,.F.);
#3640=ORIENTED_EDGE('',*,*,#1280,.T.);
#3650=EDGE_LOOP('',(#3640,#3630,#3570,#3560));
#3660=FACE_OUTER_BOUND('',#3650,.T.);
#3670=ADVANCED_FACE('',(#3660),#3500,.T.);
#3680=CARTESIAN_POINT('',(0.,0.,5.));
#3690=DIRECTION('',(0.,0.,-1.));
#3700=DIRECTION('',(-1.,0.,0.));
#3710=AXIS2_PLACEMENT_3D('',#3680,#3690,#3700);
#3720=CYLINDRICAL_SURFACE('',#3710,13.);
#3730=ORIENTED_EDGE('',*,*,#2000,.T.);
#3740=ORIENTED_EDGE('',*,*,#3020,.F.);
#3750=CARTESIAN_POINT('',(12.,-4.99999999999999,5.));
#3760=DIRECTION('',(0.,0.,-1.));
#3770=VECTOR('',#3760,1000.);
#3780=LINE('',#3750,#3770);
#3790=EDGE_CURVE('',#2940,#990,#3780,.T.);
#3800=ORIENTED_EDGE('',*,*,#3790,.F.);
#3810=ORIENTED_EDGE('',*,*,#1770,.T.);
#3820=EDGE_LOOP('',(#3810,#3800,#3740,#3730));
#3830=FACE_OUTER_BOUND('',#3820,.T.);
#3840=ADVANCED_FACE('',(#3830),#3720,.T.);
#3850=CARTESIAN_POINT('',(12.,-4.99999999999999,5.));
#3860=DIRECTION('',(-1.,0.,0.));
#3870=DIRECTION('',(0.,0.,1.));
#3880=AXIS2_PLACEMENT_3D('',#3850,#3860,#3870);
#3890=PLANE('',#3880);
#3900=ORIENTED_EDGE('',*,*,#3790,.T.);
#3910=ORIENTED_EDGE('',*,*,#2950,.F.);
#3920=ORIENTED_EDGE('',*,*,#3330,.F.);
#3930=ORIENTED_EDGE('',*,*,#1020,.T.);
#3940=EDGE_LOOP('',(#3930,#3920,#3910,#3900));
#3950=FACE_OUTER_BOUND('',#3940,.T.);
#3960=ADVANCED_FACE('',(#3950),#3890,.F.);
#3970=CARTESIAN_POINT('',(0.,0.,0.));
#3980=DIRECTION('',(0.,0.,-1.));
#3990=DIRECTION('',(-1.,0.,-0.));
#4000=AXIS2_PLACEMENT_3D('',#3970,#3980,#3990);
#4010=CONICAL_SURFACE('',#4000,10.3,0.785398163397444);
#4020=CARTESIAN_POINT('',(-10.3,0.,0.));
#4030=DIRECTION('',(-0.707106781186544,0.,-0.707106781186551));
#4040=VECTOR('',#4030,14.566399692443);
#4050=LINE('',#4020,#4040);
#4060=CARTESIAN_POINT('',(-9.3,0.,1.00000000000002));
#4070=VERTEX_POINT('',#4060);
#4080=EDGE_CURVE('',#4070,#850,#4050,.T.);
#4090=ORIENTED_EDGE('',*,*,#4080,.T.);
#4100=CARTESIAN_POINT('',(0.,0.,1.00000000000002));
#4110=DIRECTION('',(0.,0.,-1.));
#4120=DIRECTION('',(1.,0.,0.));
#4130=AXIS2_PLACEMENT_3D('',#4100,#4110,#4120);
#4140=CIRCLE('',#4130,9.3);
#4150=CARTESIAN_POINT('',(9.3,1.13892152320704E-15,1.00000000000002));
#4160=VERTEX_POINT('',#4150);
#4170=EDGE_CURVE('',#4070,#4160,#4140,.T.);
#4180=ORIENTED_EDGE('',*,*,#4170,.F.);
#4190=CARTESIAN_POINT('',(10.3,1.26138620312177E-15,0.));
#4200=DIRECTION('',(0.707106781186544,8.65956056235489E-17,
-0.707106781186551));
#4210=VECTOR('',#4200,14.566399692443);
#4220=LINE('',#4190,#4210);
#4230=EDGE_CURVE('',#4160,#870,#4220,.T.);
#4240=ORIENTED_EDGE('',*,*,#4230,.F.);
#4250=ORIENTED_EDGE('',*,*,#900,.F.);
#4260=EDGE_LOOP('',(#4250,#4240,#4180,#4090));
#4270=FACE_OUTER_BOUND('',#4260,.T.);
#4280=ADVANCED_FACE('',(#4270),#4010,.F.);
#4290=CARTESIAN_POINT('',(-12.,5.,5.));
#4300=DIRECTION('',(1.,0.,0.));
#4310=DIRECTION('',(0.,0.,-1.));
#4320=AXIS2_PLACEMENT_3D('',#4290,#4300,#4310);
#4330=PLANE('',#4320);
#4340=CARTESIAN_POINT('',(-12.,5.,5.));
#4350=DIRECTION('',(0.,0.,-1.));
#4360=VECTOR('',#4350,1000.);
#4370=LINE('',#4340,#4360);
#4380=EDGE_CURVE('',#2430,#1440,#4370,.T.);
#4390=ORIENTED_EDGE('',*,*,#4380,.T.);
#4400=ORIENTED_EDGE('',*,*,#2440,.F.);
#4410=ORIENTED_EDGE('',*,*,#3160,.F.);
#4420=ORIENTED_EDGE('',*,*,#1530,.T.);
#4430=EDGE_LOOP('',(#4420,#4410,#4400,#4390));
#4440=FACE_OUTER_BOUND('',#4430,.T.);
#4450=ADVANCED_FACE('',(#4440),#4330,.F.);
#4460=CARTESIAN_POINT('',(10.3301270189222,7.89230484541327,5.));
#4470=DIRECTION('',(-0.5,-0.866025403784439,0.));
#4480=DIRECTION('',(0.866025403784439,-0.5,0.));
#4490=AXIS2_PLACEMENT_3D('',#4460,#4470,#4480);
#4500=PLANE('',#4490);
#4510=ORIENTED_EDGE('',*,*,#3400,.T.);
#4520=ORIENTED_EDGE('',*,*,#2780,.F.);
#4530=ORIENTED_EDGE('',*,*,#3550,.F.);
#4540=ORIENTED_EDGE('',*,*,#1190,.T.);
#4550=EDGE_LOOP('',(#4540,#4530,#4520,#4510));
#4560=FACE_OUTER_BOUND('',#4550,.T.);
#4570=ADVANCED_FACE('',(#4560),#4500,.F.);
#4580=CARTESIAN_POINT('',(-1.66987298107781,12.8923048454133,5.));
#4590=DIRECTION('',(0.5,-0.866025403784439,0.));
#4600=DIRECTION('',(0.866025403784439,0.5,0.));
#4610=AXIS2_PLACEMENT_3D('',#4580,#4590,#4600);
#4620=PLANE('',#4610);
#4630=ORIENTED_EDGE('',*,*,#3620,.T.);
#4640=ORIENTED_EDGE('',*,*,#2610,.F.);
#4650=CARTESIAN_POINT('',(-10.3301270189222,7.89230484541327,5.));
#4660=DIRECTION('',(0.,0.,-1.));
#4670=VECTOR('',#4660,1000.);
#4680=LINE('',#4650,#4670);
#4690=EDGE_CURVE('',#2520,#1350,#4680,.T.);
#4700=ORIENTED_EDGE('',*,*,#4690,.F.);
#4710=ORIENTED_EDGE('',*,*,#1360,.T.);
#4720=EDGE_LOOP('',(#4710,#4700,#4640,#4630));
#4730=FACE_OUTER_BOUND('',#4720,.T.);
#4740=ADVANCED_FACE('',(#4730),#4620,.F.);
#4750=CARTESIAN_POINT('',(0.,0.,5.));
#4760=DIRECTION('',(0.,0.,-1.));
#4770=DIRECTION('',(-1.,0.,0.));
#4780=AXIS2_PLACEMENT_3D('',#4750,#4760,#4770);
#4790=CYLINDRICAL_SURFACE('',#4780,13.);
#4800=ORIENTED_EDGE('',*,*,#4690,.T.);
#4810=ORIENTED_EDGE('',*,*,#2530,.F.);
#4820=ORIENTED_EDGE('',*,*,#4380,.F.);
#4830=ORIENTED_EDGE('',*,*,#1450,.T.);
#4840=EDGE_LOOP('',(#4830,#4820,#4810,#4800));
#4850=FACE_OUTER_BOUND('',#4840,.T.);
#4860=ADVANCED_FACE('',(#4850),#4790,.T.);
#4870=CARTESIAN_POINT('',(0.,0.,5.));
#4880=DIRECTION('',(0.,0.,-1.));
#4890=DIRECTION('',(-1.,0.,0.));
#4900=AXIS2_PLACEMENT_3D('',#4870,#4880,#4890);
#4910=CYLINDRICAL_SURFACE('',#4900,9.3);
#4920=CARTESIAN_POINT('',(9.3,1.13892152320704E-15,5.));
#4930=DIRECTION('',(0.,0.,-1.));
#4940=VECTOR('',#4930,1.);
#4950=LINE('',#4920,#4940);
#4960=CARTESIAN_POINT('',(9.3,1.13892152320704E-15,3.99999999999998));
#4970=VERTEX_POINT('',#4960);
#4980=EDGE_CURVE('',#4970,#4160,#4950,.T.);
#4990=ORIENTED_EDGE('',*,*,#4980,.F.);
#5000=ORIENTED_EDGE('',*,*,#4170,.T.);
#5010=CARTESIAN_POINT('',(-9.3,0.,5.));
#5020=DIRECTION('',(0.,0.,-1.));
#5030=VECTOR('',#5020,1.);
#5040=LINE('',#5010,#5030);
#5050=CARTESIAN_POINT('',(-9.3,0.,3.99999999999998));
#5060=VERTEX_POINT('',#5050);
#5070=EDGE_CURVE('',#5060,#4070,#5040,.T.);
#5080=ORIENTED_EDGE('',*,*,#5070,.T.);
#5090=CARTESIAN_POINT('',(0.,0.,3.99999999999998));
#5100=DIRECTION('',(0.,0.,1.));
#5110=DIRECTION('',(1.,0.,0.));
#5120=AXIS2_PLACEMENT_3D('',#5090,#5100,#5110);
#5130=CIRCLE('',#5120,9.3);
#5140=EDGE_CURVE('',#4970,#5060,#5130,.T.);
#5150=ORIENTED_EDGE('',*,*,#5140,.T.);
#5160=EDGE_LOOP('',(#5150,#5080,#5000,#4990));
#5170=FACE_OUTER_BOUND('',#5160,.T.);
#5180=ADVANCED_FACE('',(#5170),#4910,.F.);
#5190=CARTESIAN_POINT('',(0.,0.,3.99999999999998));
#5200=DIRECTION('',(0.,0.,1.));
#5210=DIRECTION('',(1.,0.,-0.));
#5220=AXIS2_PLACEMENT_3D('',#5190,#5200,#5210);
#5230=CONICAL_SURFACE('',#5220,9.3,0.785398163397443);
#5240=CARTESIAN_POINT('',(-9.3,1.13892152320704E-15,3.99999999999998));
#5250=DIRECTION('',(-0.707106781186544,8.65956056235489E-17,
0.707106781186551));
#5260=VECTOR('',#5250,13.1521861300699);
#5270=LINE('',#5240,#5260);
#5280=EDGE_CURVE('',#5060,#2170,#5270,.T.);
#5290=ORIENTED_EDGE('',*,*,#5280,.F.);
#5300=ORIENTED_EDGE('',*,*,#2200,.F.);
#5310=CARTESIAN_POINT('',(9.3,0.,3.99999999999998));
#5320=DIRECTION('',(0.707106781186544,0.,0.707106781186551));
#5330=VECTOR('',#5320,13.1521861300699);
#5340=LINE('',#5310,#5330);
#5350=EDGE_CURVE('',#4970,#2190,#5340,.T.);
#5360=ORIENTED_EDGE('',*,*,#5350,.T.);
#5370=ORIENTED_EDGE('',*,*,#5140,.F.);
#5380=EDGE_LOOP('',(#5370,#5360,#5300,#5290));
#5390=FACE_OUTER_BOUND('',#5380,.T.);
#5400=ADVANCED_FACE('',(#5390),#5230,.F.);
#5410=CARTESIAN_POINT('',(0.,0.,3.99999999999998));
#5420=DIRECTION('',(0.,0.,1.));
#5430=DIRECTION('',(1.,0.,-0.));
#5440=AXIS2_PLACEMENT_3D('',#5410,#5420,#5430);
#5450=CONICAL_SURFACE('',#5440,9.3,0.785398163397443);
#5460=ORIENTED_EDGE('',*,*,#5280,.T.);
#5470=EDGE_CURVE('',#5060,#4970,#5130,.T.);
#5480=ORIENTED_EDGE('',*,*,#5470,.F.);
#5490=ORIENTED_EDGE('',*,*,#5350,.F.);
#5500=ORIENTED_EDGE('',*,*,#2220,.F.);
#5510=EDGE_LOOP('',(#5500,#5490,#5480,#5460));
#5520=FACE_OUTER_BOUND('',#5510,.T.);
#5530=ADVANCED_FACE('',(#5520),#5450,.F.);
#5540=CARTESIAN_POINT('',(0.,0.,0.));
#5550=DIRECTION('',(0.,0.,-1.));
#5560=DIRECTION('',(-1.,0.,-0.));
#5570=AXIS2_PLACEMENT_3D('',#5540,#5550,#5560);
#5580=CONICAL_SURFACE('',#5570,10.3,0.785398163397444);
#5590=ORIENTED_EDGE('',*,*,#880,.F.);
#5600=ORIENTED_EDGE('',*,*,#4230,.T.);
#5610=EDGE_CURVE('',#4160,#4070,#4140,.T.);
#5620=ORIENTED_EDGE('',*,*,#5610,.F.);
#5630=ORIENTED_EDGE('',*,*,#4080,.F.);
#5640=EDGE_LOOP('',(#5630,#5620,#5600,#5590));
#5650=FACE_OUTER_BOUND('',#5640,.T.);
#5660=ADVANCED_FACE('',(#5650),#5580,.F.);
#5670=CARTESIAN_POINT('',(0.,0.,5.));
#5680=DIRECTION('',(0.,0.,-1.));
#5690=DIRECTION('',(-1.,0.,0.));
#5700=AXIS2_PLACEMENT_3D('',#5670,#5680,#5690);
#5710=CYLINDRICAL_SURFACE('',#5700,9.3);
#5720=ORIENTED_EDGE('',*,*,#5610,.T.);
#5730=ORIENTED_EDGE('',*,*,#4980,.T.);
#5740=ORIENTED_EDGE('',*,*,#5470,.T.);
#5750=ORIENTED_EDGE('',*,*,#5070,.F.);
#5760=EDGE_LOOP('',(#5750,#5740,#5730,#5720));
#5770=FACE_OUTER_BOUND('',#5760,.T.);
#5780=ADVANCED_FACE('',(#5770),#5710,.F.);
#5790=CLOSED_SHELL('',(#420,#730,#1810,#2050,#3060,#3230,#3450,#3670,
#3840,#3960,#4280,#4450,#4570,#4740,#4860,#5180,#5400,#5530,#5660,#5780)
);
#5800=MANIFOLD_SOLID_BREP('',#5790);
#5810=CARTESIAN_POINT('',(0.,0.,0.));
#5820=DIRECTION('',(0.,0.,1.));
#5830=DIRECTION('',(1.,0.,0.));
#5840=AXIS2_PLACEMENT_3D('',#5810,#5820,#5830);
#5850=APPLICATION_CONTEXT(' ');
#5860=APPLICATION_PROTOCOL_DEFINITION(' ','automotive_design',1998,#5850
);
#5870=PRODUCT_CONTEXT('',#5850,'mechanical');
#5880=PRODUCT_DEFINITION_CONTEXT('part definition',#5850,'design');
#5890=PRODUCT('AS_M20L','AS_M20L','',(#5870));
#5900=PRODUCT_RELATED_PRODUCT_CATEGORY('part',' ',(#5890));
#5910=PRODUCT_DEFINITION_FORMATION_WITH_SPECIFIED_SOURCE('','',#5890,
.BOUGHT.);
#5920=PRODUCT_DEFINITION('',' ',#5910,#5880);
#5930=PRODUCT_DEFINITION_SHAPE('','',#5920);
#5940=DIMENSIONAL_EXPONENTS(1.,0.,0.,0.,0.,0.,0.);
#5950=DIMENSIONAL_EXPONENTS(0.,0.,0.,0.,0.,0.,0.);
#5960=DIMENSIONAL_EXPONENTS(0.,0.,0.,0.,0.,0.,0.);
#5970=(LENGTH_UNIT() NAMED_UNIT(*) SI_UNIT(.MILLI.,.METRE.));
#5980=(NAMED_UNIT(*) PLANE_ANGLE_UNIT() SI_UNIT($,.RADIAN.));
#5990=(NAMED_UNIT(*) SI_UNIT($,.STERADIAN.) SOLID_ANGLE_UNIT());
#6000=(GEOMETRIC_REPRESENTATION_CONTEXT(3) 
GLOBAL_UNCERTAINTY_ASSIGNED_CONTEXT((#6010)) 
GLOBAL_UNIT_ASSIGNED_CONTEXT((#5970,#5980,#5990)) REPRESENTATION_CONTEXT
('',''));
#6010=UNCERTAINTY_MEASURE_WITH_UNIT(LENGTH_MEASURE(1.E-6),#5970,
'distance_accuracy_value','maximum gap value');
#6020=ADVANCED_BREP_SHAPE_REPRESENTATION('',(#5840,#5800),#6000);
#6030=SHAPE_DEFINITION_REPRESENTATION(#5930,#6020);
#6040=COLOUR_RGB('',0.600000023841858,0.600000023841858,
0.600000023841858);
#6050=FILL_AREA_STYLE_COLOUR('',#6040);
#6060=FILL_AREA_STYLE('',(#6050));
#6070=SURFACE_STYLE_FILL_AREA(#6060);
#6080=SURFACE_SIDE_STYLE('',(#6070));
#6090=SURFACE_STYLE_USAGE(.BOTH.,#6080);
#6100=PRESENTATION_STYLE_ASSIGNMENT((#6090));
#6110=STYLED_ITEM('',(#6100),#5800);
#6120=DRAUGHTING_MODEL('',(#6110),#6000);
ENDSEC;
END-ISO-10303-21;
